+ Yorum Gönder
Müzik ve Tv ve Müzik Türleri Forumunda Duman grubu Aman Aman şarkı akorları Konusunu Okuyorsunuz..
  1. Gizli @ yara
    Özel Üye

    Duman grubu Aman Aman şarkı akorları








    Duman grubu / Aman Aman

    F#m E
    Nereye gider başını alıp sorarsın
    F#m E
    Kimbilir durmadan nasıl susarsın
    F#m E
    Bilmeden boşuna atıp tutarsın
    F#m E F#m
    Su gibi akıp geçer zaman

    F#m E
    Gezdin tozdun aman aman aman)
    F#m E )
    Sazdın sözdün aman aman aman)
    F#m E )
    Giderek üzdün bizi zaman )
    F#m E )
    Giderek üzdün bizi zaman )
    F#m E ) nakarat x 2
    Yazdın çizdin aman aman aman)
    F#m E )
    ıncecik izdin aman aman aman)
    F#m E )
    Sıraya dizdin bizi zaman )
    F#m E )
    Sıraya dizdin bizi zaman )

    F#m E
    Hep kaçıp yeni bir Adım atarken
    F#m E
    Dibine kadar çileye batıp çıkarken
    F#m E
    ıçine atıp atıp yoluna basıp giderken
    F#m E F#m
    Su gibi akıp geçer zaman

    Nakarat x 2







  2. SuskuN PrenS
    Özel Üye





    Kısaca Duman grubu Aman Aman şarkı akorları




    DUMAN - AMAN AMAN
    F#m E
    E||--------------------------------|------------------------------
    B||----------2-2--2--3--2h3p2------|----------0-------------------
    G||--------2------------------4----|--------1---4--4--6--4h6p4-2--
    D||------4-------------------------|------2-----------------------
    A||----4---------------------------|----2-------------------------
    E||--2-----------------------------|--0---------------------------
    F#m E
    |--------------------------------|--------------------------------|
    |----------2-2--2--3--2h3p2------|--------------------------------|
    |--------2------------------4----|--------1--1-1-1-1--2--1h2p1----|
    |------4-------------------------|------2----------------------4--|
    |----4---------------------------|----2---------------------------|
    |--2-----------------------------|--0-----------------------------|
    F#m E
    --------------------------------|------------0------------------|
    ----------2-2--2--3--2h3p2------|----------0---5--5--7--5h7p5-2-|
    --------2------------------4----|--------1----------------------|
    ------4-------------------------|------2------------------------|
    ----4---------------------------|----2--------------------------|
    --2-----------------------------|--0----------------------------|
    F#m E
    --------------------------------|--------------------------------||
    ----------2-2--2--3--2h3p2------|--------------------------------||
    --------2------------------4----|--------1--1-1-1-1--2--1h2p1----||
    ------4-------------------------|------2----------------------4--||
    ----4---------------------------|----2---------------------------||
    --2-----------------------------|--0-----------------------------||
    tek gtarsa bole calınıyo ama iki gitarla calma sansınız varsa (gruplar için)
    iki gtar calsanız daa ii olur galiba --solo bitince F#m'ye donceniz





+ Yorum Gönder


Hızlı Cevap Hızlı Cevap


: